play pause home ff

Joan Baez - Diamonds and Rust  

This is adapted loosely from the Judas Priest version.

The originals are in Em, I play in Em capo 5.

As a duet, I sing a 3rd below the lead and play in Em.

The songs is a dirge, so I follow the Priest version,

which is a rocking metal gallop.

Long riff

-0------0---0-----0----0---0----0----0---0----
-0--0--0---0---0--0---0---0---0-0---0---0---0-
-0-------------0-------------0-------------
-2-2--4---2---0---2--4---2---0--2--4---2---4--
-2----------------2-------------2-------------
-0------------------0-----------0-0-----------

---0---0--0--0--0-0--0--0--0--0---0-0--0--0--0-2-
--0---0-----0--0----0--0-----0---0----0--0-----0-
-----------------------------------------------2-
-5---4---5-7--5--7-9--9---9-7--7---7-5--5---5--1-
-----------------------------------------------2-
-------------------------------------------------

Short riff

-0---0---0-----0----0---0----0----0---0----2-
-0--0---0---0--0---0---0---0-0---0---0---0-0-
-0-------------0-------------0-------------2-
-2-4---2---0---2--4---2---0--2--4---2---4--1-
-2-------------2-------------2-------------2-
-0---------------0-----------0-0-------------

Play long riff if not rocking

Em 
Well I’ll be damned here comes your ghost again
But that’s not unusual it’s just that the moon is full
Em 
And you happened to call

    

Em 
And here I sit  hand on the telephone
I’m hearing a voice I’d known a couple of light years ago
Em 
Heading straight for a fall

Well we both know what memories can bring 
Em 
They bring diamonds and rust
Well we both know what memories can bring 
Em 
They bring diamonds and rust

Play short riff if not rocking

Em 
As I remember, your eyes were bluer than robins’ eggs 
My poetry was lousy you said, but where are you calling from? 
Em 
A booth in the mid-west

Em 
Ten years ago I bought you some cuff-links 
And you bought me something
We both know what memories can bring 
Em 
They bring diamonds and rust

Play short riff if not rocking, else another chorus

Em 
You burst on the scene, already a legend
The unwashed phenomenon, the original vagabond
Em 
You strayed into my arms

Em 
And there you stayed, temporarily lost at sea
The Madonna was yours for free, the girl on the half-shell
Em 
Could keep you unharmed

Well we both know what memories can bring 
Em 
They bring diamonds and rust
Well we both know what memories can bring 
Em 
They bring diamonds and rust

Vox on the 5 of the chord

Bm7 
Now I see you standing with brown leaves falling all around
Am7 
And snow in your hair
Bm7 
Now you’re smiling out of the window of that crummy hotel
Am7 
Over Washington Square 

Our breath comes out of white clouds
Mingles and hangs in the air
Fmaj7 
Speaking strictly for me
B7 
We both could  have died then and there
Em Em 
  

Play long riff if not rocking

Em 
Now you’re telling me you’re not nostalgic
Then give me another word for it you who are so good with words
Em 
And at keeping things vague

Em 
‘Cause I need some of that vagueness now
It’s all come back too clearly
Yes I loved you dearly, and if you’re offering diamonds and rust
Em 
I’ve already paid

Well we both know what memories can bring 
Em 
They bring diamonds and rust
Well we both know what memories can bring 
Em 
They bring diamonds and rust

Well we both know what memories can bring 
Em 
They bring diamonds and rust
Well we both know what memories can bring 
Em 
They bring diamonds and rust

Em 
Diamonds, diamonds, and rust
Em 
Diamonds, diamonds, and rust