play pause home ff

Dixie Chicks - Long Time Gone  

3-5-x--3--x--3--x--7--x--7--x--3--5h3-3-3-
3---x--3--x--3--x--3--x--3--x--3--3---3-3-
0---x--0--x--0--x--0--x--0--x--0--0---0-0-
------------------------------------------
------------------------------------------
------------------------------------------
                                                 
3--5--x--3--x--3--x--x--8-7-5-x--x-
3-----x--3--x--3--x--x--5-5-7-x--x-
0-----x--0--x--0--x--x--0-7-7-x--x-
-----------------------------------
-----------------------------------
-----------------------------------

5-7-x-9/10-x-x-----------------|----5-3
7---x-9/10-x-x-10--9---x-9s-10-|-10-7-3
7---x------x-x-11--10--x-10s11-|-11-5-0
---------------10--9---x-9s-10-|-10-7-0
-------------------------------|-------
-------------------------------|-------

Darrell Scott does this in G, Dixie Chicks in D

Chords for tabbed intro

 
Daddy sits on the front porch swingin’
Lookin’ out on a vacant field
It used to be filled with burly tobacco
Now he knows it never will
My brother found work in Indiana
My sister’s a nurse at the old folks home
Momma’s still cookin’ too much for supper
And me, I’ve been a long time gone

Been a long time gone
No I ain’t hoed a row since I don’t know when
Long time gone and it ain’t comin’ back again

 
Delia plays that old church piano
Sittin’ out on her daddy’s farm
She always thought that we’d be together
Lord, I never meant to do her harm
Said she could heard me singin’ in the choir
Me I heard another song
I caught wind and hit the road runnin’ and
Lord I’ve been a long time gone

Been a long time gone
Lord I ain’t had a prayer since I don’t know when
Long time gone and it ain’t comin’ back again

 x 2

Bridge

Now me, I went to Nashville, tryin’ to be the big deal
Playin’ down on Broadway, gettin’ there the hard way
Livin’ from a tip jar, sleepin’ in my car
Hockin’ my guitar, yeah I’m gonna be a star

Now me and Delia singin’ every Sunday
Watchin’ the children and the garden grow
We listen to the radio to hear what’s cookin’
But the music ain’t got no soul
Now they sound tired but they don’t sound Haggard
They got money but they don’t have Cash
They got Junior but they don’t have Hank

I think, I think, I think the rest is a

Long time gone
No I ain’t hit the roof since I don’t know when
Long time gone and it ain’t comin’ back
I said a long time gone
No I ain’t honked a horn since I don’t know when
Long time gone and it ain’t comin’ back again

I said a long time, long time, long time gone
Oh it’s been a long time 

Long time, long time, long time gone
Oh it’s been a long... time... gone

Long time, long time, long time gone, yeah, yeah

Repeat intro